ISO-10303-21;
HEADER;
FILE_DESCRIPTION((''),'2;1');
FILE_NAME('KIHA_08X40','2013-11-08T',('tutyi'),(''),
'PRO/ENGINEER BY PARAMETRIC TECHNOLOGY CORPORATION, 2011250',
'PRO/ENGINEER BY PARAMETRIC TECHNOLOGY CORPORATION, 2011250','');
FILE_SCHEMA(('AUTOMOTIVE_DESIGN { 1 0 10303 214 1 1 1 1 }'));
ENDSEC;
DATA;
#14=CARTESIAN_POINT('',(1.4E0,0.E0,0.E0));
#15=DIRECTION('',(1.E0,0.E0,0.E0));
#16=DIRECTION('',(0.E0,-1.E0,0.E0));
#17=AXIS2_PLACEMENT_3D('',#14,#15,#16);
#19=DIRECTION('',(-1.E0,0.E0,4.379113313512E-13));
#20=VECTOR('',#19,3.86E1);
#21=CARTESIAN_POINT('',(4.E1,-4.E-1,0.E0));
#22=LINE('',#21,#20);
#23=CARTESIAN_POINT('',(4.E1,0.E0,0.E0));
#24=DIRECTION('',(-1.E0,0.E0,0.E0));
#25=DIRECTION('',(0.E0,1.E0,0.E0));
#26=AXIS2_PLACEMENT_3D('',#23,#24,#25);
#28=DIRECTION('',(-1.E0,0.E0,-4.379132664940E-13));
#29=VECTOR('',#28,3.86E1);
#30=CARTESIAN_POINT('',(4.E1,4.E-1,0.E0));
#31=LINE('',#30,#29);
#32=CARTESIAN_POINT('',(1.4E0,-6.E-1,-5.518141499294E-12));
#33=DIRECTION('',(0.E0,9.196921002541E-12,-1.E0));
#34=DIRECTION('',(-1.E0,1.019739848118E-11,0.E0));
#35=AXIS2_PLACEMENT_3D('',#32,#33,#34);
#37=CARTESIAN_POINT('',(1.2E0,0.E0,0.E0));
#38=DIRECTION('',(1.E0,0.E0,0.E0));
#39=DIRECTION('',(0.E0,-1.E0,0.E0));
#40=AXIS2_PLACEMENT_3D('',#37,#38,#39);
#42=CARTESIAN_POINT('',(1.2E0,0.E0,0.E0));
#43=DIRECTION('',(1.E0,0.E0,0.E0));
#44=DIRECTION('',(0.E0,1.E0,0.E0));
#45=AXIS2_PLACEMENT_3D('',#42,#43,#44);
#47=DIRECTION('',(-1.E0,0.E0,0.E0));
#48=VECTOR('',#47,1.2E0);
#49=CARTESIAN_POINT('',(1.2E0,1.25E0,0.E0));
#50=LINE('',#49,#48);
#51=DIRECTION('',(-1.E0,0.E0,0.E0));
#52=VECTOR('',#51,1.2E0);
#53=CARTESIAN_POINT('',(1.2E0,-1.25E0,0.E0));
#54=LINE('',#53,#52);
#55=CARTESIAN_POINT('',(1.2E0,0.E0,0.E0));
#56=DIRECTION('',(-1.E0,0.E0,0.E0));
#57=DIRECTION('',(0.E0,1.E0,0.E0));
#58=AXIS2_PLACEMENT_3D('',#55,#56,#57);
#60=CARTESIAN_POINT('',(1.2E0,0.E0,0.E0));
#61=DIRECTION('',(1.E0,0.E0,0.E0));
#62=DIRECTION('',(0.E0,1.E0,0.E0));
#63=AXIS2_PLACEMENT_3D('',#60,#61,#62);
#65=CARTESIAN_POINT('',(0.E0,0.E0,0.E0));
#66=DIRECTION('',(-1.E0,0.E0,0.E0));
#67=DIRECTION('',(0.E0,1.E0,0.E0));
#68=AXIS2_PLACEMENT_3D('',#65,#66,#67);
#70=CARTESIAN_POINT('',(0.E0,0.E0,0.E0));
#71=DIRECTION('',(1.E0,0.E0,0.E0));
#72=DIRECTION('',(0.E0,1.E0,0.E0));
#73=AXIS2_PLACEMENT_3D('',#70,#71,#72);
#75=CARTESIAN_POINT('',(1.4E0,6.E-1,5.518058232568E-12));
#76=DIRECTION('',(0.E0,-9.196754469087E-12,1.E0));
#77=DIRECTION('',(-1.E0,-1.019850870421E-11,0.E0));
#78=AXIS2_PLACEMENT_3D('',#75,#76,#77);
#80=CARTESIAN_POINT('',(1.4E0,0.E0,0.E0));
#81=DIRECTION('',(1.E0,0.E0,0.E0));
#82=DIRECTION('',(0.E0,1.E0,0.E0));
#83=AXIS2_PLACEMENT_3D('',#80,#81,#82);
#85=CARTESIAN_POINT('',(4.E1,0.E0,0.E0));
#86=DIRECTION('',(1.E0,0.E0,0.E0));
#87=DIRECTION('',(0.E0,1.E0,0.E0));
#88=AXIS2_PLACEMENT_3D('',#85,#86,#87);
#90=CARTESIAN_POINT('',(1.2E0,1.25E0,0.E0));
#91=CARTESIAN_POINT('',(0.E0,1.25E0,0.E0));
#92=VERTEX_POINT('',#90);
#93=VERTEX_POINT('',#91);
#94=CARTESIAN_POINT('',(1.2E0,-1.25E0,0.E0));
#95=CARTESIAN_POINT('',(0.E0,-1.25E0,0.E0));
#96=VERTEX_POINT('',#94);
#97=VERTEX_POINT('',#95);
#98=CARTESIAN_POINT('',(4.E1,4.E-1,0.E0));
#99=CARTESIAN_POINT('',(4.E1,-4.E-1,0.E0));
#100=VERTEX_POINT('',#98);
#101=VERTEX_POINT('',#99);
#102=CARTESIAN_POINT('',(1.2E0,-6.E-1,0.E0));
#103=CARTESIAN_POINT('',(1.2E0,6.E-1,0.E0));
#104=VERTEX_POINT('',#102);
#105=VERTEX_POINT('',#103);
#106=CARTESIAN_POINT('',(1.4E0,-4.E-1,0.E0));
#107=CARTESIAN_POINT('',(1.4E0,4.E-1,0.E0));
#108=VERTEX_POINT('',#106);
#109=VERTEX_POINT('',#107);
#110=CARTESIAN_POINT('',(4.E1,0.E0,0.E0));
#111=DIRECTION('',(1.E0,0.E0,0.E0));
#112=DIRECTION('',(0.E0,-1.E0,0.E0));
#113=AXIS2_PLACEMENT_3D('',#110,#111,#112);
#114=PLANE('',#113);
#116=ORIENTED_EDGE('',*,*,#115,.T.);
#118=ORIENTED_EDGE('',*,*,#117,.F.);
#119=EDGE_LOOP('',(#116,#118));
#120=FACE_OUTER_BOUND('',#119,.F.);
#122=CARTESIAN_POINT('',(-2.E0,0.E0,0.E0));
#123=DIRECTION('',(1.E0,0.E0,0.E0));
#124=DIRECTION('',(0.E0,-1.E0,0.E0));
#125=AXIS2_PLACEMENT_3D('',#122,#123,#124);
#126=CYLINDRICAL_SURFACE('',#125,4.E-1);
#128=ORIENTED_EDGE('',*,*,#127,.F.);
#130=ORIENTED_EDGE('',*,*,#129,.F.);
#131=ORIENTED_EDGE('',*,*,#115,.F.);
#133=ORIENTED_EDGE('',*,*,#132,.T.);
#134=EDGE_LOOP('',(#128,#130,#131,#133));
#135=FACE_OUTER_BOUND('',#134,.F.);
#137=CARTESIAN_POINT('',(1.4E0,0.E0,0.E0));
#138=DIRECTION('',(1.E0,0.E0,0.E0));
#139=DIRECTION('',(0.E0,-9.270161010728E-1,3.750215305176E-1));
#140=AXIS2_PLACEMENT_3D('',#137,#138,#139);
#141=TOROIDAL_SURFACE('',#140,6.E-1,2.E-1);
#143=ORIENTED_EDGE('',*,*,#142,.F.);
#145=ORIENTED_EDGE('',*,*,#144,.T.);
#146=ORIENTED_EDGE('',*,*,#127,.T.);
#148=ORIENTED_EDGE('',*,*,#147,.F.);
#149=EDGE_LOOP('',(#143,#145,#146,#148));
#150=FACE_OUTER_BOUND('',#149,.F.);
#152=CARTESIAN_POINT('',(1.2E0,0.E0,0.E0));
#153=DIRECTION('',(1.E0,0.E0,0.E0));
#154=DIRECTION('',(0.E0,-1.E0,0.E0));
#155=AXIS2_PLACEMENT_3D('',#152,#153,#154);
#156=PLANE('',#155);
#158=ORIENTED_EDGE('',*,*,#157,.T.);
#160=ORIENTED_EDGE('',*,*,#159,.F.);
#161=EDGE_LOOP('',(#158,#160));
#162=FACE_OUTER_BOUND('',#161,.F.);
#163=ORIENTED_EDGE('',*,*,#142,.T.);
#165=ORIENTED_EDGE('',*,*,#164,.T.);
#166=EDGE_LOOP('',(#163,#165));
#167=FACE_BOUND('',#166,.F.);
#169=CARTESIAN_POINT('',(-2.E0,0.E0,0.E0));
#170=DIRECTION('',(1.E0,0.E0,0.E0));
#171=DIRECTION('',(0.E0,-1.E0,0.E0));
#172=AXIS2_PLACEMENT_3D('',#169,#170,#171);
#173=CYLINDRICAL_SURFACE('',#172,1.25E0);
#175=ORIENTED_EDGE('',*,*,#174,.T.);
#177=ORIENTED_EDGE('',*,*,#176,.T.);
#179=ORIENTED_EDGE('',*,*,#178,.F.);
#180=ORIENTED_EDGE('',*,*,#157,.F.);
#181=EDGE_LOOP('',(#175,#177,#179,#180));
#182=FACE_OUTER_BOUND('',#181,.F.);
#184=CARTESIAN_POINT('',(-2.E0,0.E0,0.E0));
#185=DIRECTION('',(1.E0,0.E0,0.E0));
#186=DIRECTION('',(0.E0,-1.E0,0.E0));
#187=AXIS2_PLACEMENT_3D('',#184,#185,#186);
#188=CYLINDRICAL_SURFACE('',#187,1.25E0);
#189=ORIENTED_EDGE('',*,*,#174,.F.);
#190=ORIENTED_EDGE('',*,*,#159,.T.);
#191=ORIENTED_EDGE('',*,*,#178,.T.);
#193=ORIENTED_EDGE('',*,*,#192,.F.);
#194=EDGE_LOOP('',(#189,#190,#191,#193));
#195=FACE_OUTER_BOUND('',#194,.F.);
#197=CARTESIAN_POINT('',(0.E0,0.E0,0.E0));
#198=DIRECTION('',(1.E0,0.E0,0.E0));
#199=DIRECTION('',(0.E0,-1.E0,0.E0));
#200=AXIS2_PLACEMENT_3D('',#197,#198,#199);
#201=PLANE('',#200);
#202=ORIENTED_EDGE('',*,*,#176,.F.);
#203=ORIENTED_EDGE('',*,*,#192,.T.);
#204=EDGE_LOOP('',(#202,#203));
#205=FACE_OUTER_BOUND('',#204,.F.);
#207=CARTESIAN_POINT('',(1.4E0,0.E0,0.E0));
#208=DIRECTION('',(1.E0,0.E0,0.E0));
#209=DIRECTION('',(0.E0,9.270161010728E-1,-3.750215305176E-1));
#210=AXIS2_PLACEMENT_3D('',#207,#208,#209);
#211=TOROIDAL_SURFACE('',#210,6.E-1,2.E-1);
#212=ORIENTED_EDGE('',*,*,#164,.F.);
#213=ORIENTED_EDGE('',*,*,#147,.T.);
#215=ORIENTED_EDGE('',*,*,#214,.T.);
#216=ORIENTED_EDGE('',*,*,#144,.F.);
#217=EDGE_LOOP('',(#212,#213,#215,#216));
#218=FACE_OUTER_BOUND('',#217,.F.);
#220=CARTESIAN_POINT('',(-2.E0,0.E0,0.E0));
#221=DIRECTION('',(1.E0,0.E0,0.E0));
#222=DIRECTION('',(0.E0,-1.E0,0.E0));
#223=AXIS2_PLACEMENT_3D('',#220,#221,#222);
#224=CYLINDRICAL_SURFACE('',#223,4.E-1);
#225=ORIENTED_EDGE('',*,*,#214,.F.);
#226=ORIENTED_EDGE('',*,*,#132,.F.);
#227=ORIENTED_EDGE('',*,*,#117,.T.);
#228=ORIENTED_EDGE('',*,*,#129,.T.);
#229=EDGE_LOOP('',(#225,#226,#227,#228));
#230=FACE_OUTER_BOUND('',#229,.F.);
#232=CLOSED_SHELL('',(#121,#136,#151,#168,#183,#196,#206,#219,#231));
#233=MANIFOLD_SOLID_BREP('',#232);
#236=PLANE_ANGLE_MEASURE_WITH_UNIT(PLANE_ANGLE_MEASURE(1.745329251994E-2),#235);
#237=(CONVERSION_BASED_UNIT('DEGREE',#236)NAMED_UNIT(*)PLANE_ANGLE_UNIT());
#239=UNCERTAINTY_MEASURE_WITH_UNIT(LENGTH_MEASURE(1.E-2),#234,
'distance_accuracy_value',
'Maximum model space distance between geometric entities at asserted connectivities');
#242=APPLICATION_CONTEXT('automotive_design');
#243=APPLICATION_PROTOCOL_DEFINITION('international standard',
'automotive_design',2001,#242);
#244=PRODUCT_DEFINITION_CONTEXT('part definition',#242,'design');
#245=PRODUCT_CONTEXT('',#242,'mechanical');
#246=PRODUCT('KIHA_08X40','KIHA_08X40','NOT SPECIFIED',(#245));
#247=PRODUCT_DEFINITION_FORMATION('1','LAST_VERSION',#246);
#255=DERIVED_UNIT_ELEMENT(#254,2.E0);
#256=DERIVED_UNIT((#255));
#257=MEASURE_REPRESENTATION_ITEM('surface area measure',AREA_MEASURE(
1.165593427379E2),#256);
#262=DERIVED_UNIT_ELEMENT(#261,3.E0);
#263=DERIVED_UNIT((#262));
#264=MEASURE_REPRESENTATION_ITEM('volume measure',VOLUME_MEASURE(
2.541747699135E1),#263);
#268=CARTESIAN_POINT('centre point',(1.594674589304E1,0.E0,1.137999482711E-10));
#273=DERIVED_UNIT_ELEMENT(#272,2.E0);
#274=DERIVED_UNIT((#273));
#275=MEASURE_REPRESENTATION_ITEM('surface area measure',AREA_MEASURE(
1.165593427379E2),#274);
#280=DERIVED_UNIT_ELEMENT(#279,3.E0);
#281=DERIVED_UNIT((#280));
#282=MEASURE_REPRESENTATION_ITEM('volume measure',VOLUME_MEASURE(
2.541747699135E1),#281);
#286=CARTESIAN_POINT('centre point',(1.594674589304E1,0.E0,1.137999482711E-10));
#291=PRODUCT_RELATED_PRODUCT_CATEGORY('part','',(#246));
#293=GENERAL_PROPERTY('','DESCRIPTION','user defined attribute');
#294=GENERAL_PROPERTY_ASSOCIATION('user defined attribute','',#293,#292);
#295=DESCRIPTIVE_REPRESENTATION_ITEM('DESCRIPTION','');
#299=GENERAL_PROPERTY('','MODELED_BY','user defined attribute');
#300=GENERAL_PROPERTY_ASSOCIATION('user defined attribute','',#299,#298);
#301=DESCRIPTIVE_REPRESENTATION_ITEM('MODELED_BY','');
#305=GENERAL_PROPERTY('','PTC_MATERIAL_NAME','user defined attribute');
#306=GENERAL_PROPERTY_ASSOCIATION('user defined attribute','',#305,#304);
#307=DESCRIPTIVE_REPRESENTATION_ITEM('PTC_MATERIAL_NAME','STEEL');
#1=DRAUGHTING_PRE_DEFINED_COLOUR('green');
#2=COLOUR_RGB('',1.1E-2,1.2E-2,1.E0);
#3=COLOUR_RGB('',3.92E-1,1.2E-2,1.2E-2);
#4=COLOUR_RGB('',4.1E-1,0.E0,2.2E-1);
#5=COLOUR_RGB('',6.952E-1,7.426E-1,7.9E-1);
#6=COLOUR_RGB('',7.84314E-1,7.84314E-1,7.84314E-1);
#7=COLOUR_RGB('',8.784E-1,9.49E-1,1.E0);
#8=COLOUR_RGB('',9.6E-1,9.6E-1,9.6E-1);
#9=COLOUR_RGB('',9.8E-1,6.27E-1,0.E0);
#10=DRAUGHTING_PRE_DEFINED_COLOUR('red');
#11=DRAUGHTING_PRE_DEFINED_COLOUR('yellow');
#12=COLOUR_RGB('',1.E0,1.E0,9.49E-1);
#13=DRAUGHTING_PRE_DEFINED_COLOUR('white');
#18=CIRCLE('',#17,4.E-1);
#27=CIRCLE('',#26,4.E-1);
#36=CIRCLE('',#35,2.E-1);
#41=CIRCLE('',#40,6.E-1);
#46=CIRCLE('',#45,6.E-1);
#59=CIRCLE('',#58,1.25E0);
#64=CIRCLE('',#63,1.25E0);
#69=CIRCLE('',#68,1.25E0);
#74=CIRCLE('',#73,1.25E0);
#79=CIRCLE('',#78,2.E-1);
#84=CIRCLE('',#83,4.E-1);
#89=CIRCLE('',#88,4.E-1);
#115=EDGE_CURVE('',#100,#101,#27,.T.);
#117=EDGE_CURVE('',#100,#101,#89,.T.);
#121=ADVANCED_FACE('',(#120),#114,.T.);
#127=EDGE_CURVE('',#108,#109,#18,.T.);
#129=EDGE_CURVE('',#101,#108,#22,.T.);
#132=EDGE_CURVE('',#100,#109,#31,.T.);
#136=ADVANCED_FACE('',(#135),#126,.T.);
#142=EDGE_CURVE('',#104,#105,#41,.T.);
#144=EDGE_CURVE('',#104,#108,#36,.T.);
#147=EDGE_CURVE('',#105,#109,#79,.T.);
#151=ADVANCED_FACE('',(#150),#141,.F.);
#157=EDGE_CURVE('',#92,#96,#59,.T.);
#159=EDGE_CURVE('',#92,#96,#64,.T.);
#164=EDGE_CURVE('',#105,#104,#46,.T.);
#168=ADVANCED_FACE('',(#162,#167),#156,.T.);
#174=EDGE_CURVE('',#92,#93,#50,.T.);
#176=EDGE_CURVE('',#93,#97,#69,.T.);
#178=EDGE_CURVE('',#96,#97,#54,.T.);
#183=ADVANCED_FACE('',(#182),#173,.T.);
#192=EDGE_CURVE('',#93,#97,#74,.T.);
#196=ADVANCED_FACE('',(#195),#188,.T.);
#206=ADVANCED_FACE('',(#205),#201,.F.);
#214=EDGE_CURVE('',#109,#108,#84,.T.);
#219=ADVANCED_FACE('',(#218),#211,.F.);
#231=ADVANCED_FACE('',(#230),#224,.T.);
#234=(LENGTH_UNIT()NAMED_UNIT(*)SI_UNIT(.MILLI.,.METRE.));
#235=(NAMED_UNIT(*)PLANE_ANGLE_UNIT()SI_UNIT($,.RADIAN.));
#238=(NAMED_UNIT(*)SI_UNIT($,.STERADIAN.)SOLID_ANGLE_UNIT());
#240=(GEOMETRIC_REPRESENTATION_CONTEXT(3)GLOBAL_UNCERTAINTY_ASSIGNED_CONTEXT((
#239))GLOBAL_UNIT_ASSIGNED_CONTEXT((#234,#237,#238))REPRESENTATION_CONTEXT
('ID1','3'));
#241=ADVANCED_BREP_SHAPE_REPRESENTATION('',(#233),#240);
#248=PRODUCT_DEFINITION('part definition','',#247,#244);
#249=PRODUCT_DEFINITION_SHAPE('','SHAPE FOR KIHA_08X40.',#248);
#250=SHAPE_ASPECT('','solid data associated with KIHA_08X40',#249,.F.);
#251=PROPERTY_DEFINITION('',
'shape for solid data with which properties are associated',#250);
#252=SHAPE_REPRESENTATION('',(#233),#240);
#253=SHAPE_DEFINITION_REPRESENTATION(#251,#252);
#254=(LENGTH_UNIT()NAMED_UNIT(*)SI_UNIT(.MILLI.,.METRE.));
#258=PROPERTY_DEFINITION('geometric validation property','area of KIHA_08X40',
#250);
#259=REPRESENTATION('surface area',(#257),#240);
#260=PROPERTY_DEFINITION_REPRESENTATION(#258,#259);
#261=(LENGTH_UNIT()NAMED_UNIT(*)SI_UNIT(.MILLI.,.METRE.));
#265=PROPERTY_DEFINITION('geometric validation property','volume of KIHA_08X40',
#250);
#266=REPRESENTATION('volume',(#264),#240);
#267=PROPERTY_DEFINITION_REPRESENTATION(#265,#266);
#269=PROPERTY_DEFINITION('geometric validation property',
'centroid of KIHA_08X40',#250);
#270=REPRESENTATION('centroid',(#268),#240);
#271=PROPERTY_DEFINITION_REPRESENTATION(#269,#270);
#272=(LENGTH_UNIT()NAMED_UNIT(*)SI_UNIT(.MILLI.,.METRE.));
#276=PROPERTY_DEFINITION('geometric validation property','area of KIHA_08X40',
#249);
#277=REPRESENTATION('surface area',(#275),#240);
#278=PROPERTY_DEFINITION_REPRESENTATION(#276,#277);
#279=(LENGTH_UNIT()NAMED_UNIT(*)SI_UNIT(.MILLI.,.METRE.));
#283=PROPERTY_DEFINITION('geometric validation property','volume of KIHA_08X40',
#249);
#284=REPRESENTATION('volume',(#282),#240);
#285=PROPERTY_DEFINITION_REPRESENTATION(#283,#284);
#287=PROPERTY_DEFINITION('geometric validation property',
'centroid of KIHA_08X40',#249);
#288=REPRESENTATION('centroid',(#286),#240);
#289=PROPERTY_DEFINITION_REPRESENTATION(#287,#288);
#290=SHAPE_DEFINITION_REPRESENTATION(#249,#241);
#292=PROPERTY_DEFINITION('DESCRIPTION','user defined attribute',#248);
#296=REPRESENTATION('',(#295),#240);
#297=PROPERTY_DEFINITION_REPRESENTATION(#292,#296);
#298=PROPERTY_DEFINITION('MODELED_BY','user defined attribute',#248);
#302=REPRESENTATION('',(#301),#240);
#303=PROPERTY_DEFINITION_REPRESENTATION(#298,#302);
#304=PROPERTY_DEFINITION('PTC_MATERIAL_NAME','user defined attribute',#248);
#308=REPRESENTATION('',(#307),#240);
#309=PROPERTY_DEFINITION_REPRESENTATION(#304,#308);
ENDSEC;
END-ISO-10303-21;
